0
SECTION
2
HEADER
9
$ACADVER
1
AC1006
0
ENDSEC
0
SECTION
2
TABLES
0
TABLE
2
LAYER
70
3
0
LAYER
70
0
62
1
6
CONTINUOUS
2
L1D0
0
LAYER
70
0
62
2
6
CONTINUOUS
2
L2D0
0
LAYER
70
0
62
3
6
CONTINUOUS
2
L100D0
0
ENDTAB
0
ENDSEC
0
SECTION
2
BLOCKS
0
ENDSEC
0
SECTION
2
ENTITIES
0
LINE
8
L1D0
66
1
10
0
20
0
11
0
21
1.6
0
LINE
8
L1D0
66
1
10
0
20
1.6
11
1.6
21
1.6
0
LINE
8
L1D0
66
1
10
1.6
20
1.6
11
1.6
21
0
0
LINE
8
L1D0
66
1
10
1.6
20
0
11
0
21
0
0
LINE
8
L2D0
66
1
10
0.4
20
0.39
11
0.4
21
1.2
0
LINE
8
L2D0
66
1
10
0.4
20
1.2
11
1.21
21
1.2
0
LINE
8
L2D0
66
1
10
1.21
20
1.2
11
1.21
21
0.39
0
LINE
8
L2D0
66
1
10
1.21
20
0.39
11
0.4
21
0.39
0
LINE
8
L100D0
66
1
10
0
20
0
11
0
21
1.6
0
LINE
8
L100D0
66
1
10
0
20
1.6
11
1.6
21
1.6
0
LINE
8
L100D0
66
1
10
1.6
20
1.6
11
1.6
21
0
0
LINE
8
L100D0
66
1
10
1.6
20
0
11
0
21
0
0
LINE
8
L100D0
66
1
10
0.4
20
0.39
11
1.21
21
0.39
0
LINE
8
L100D0
66
1
10
1.21
20
0.39
11
1.21
21
1.2
0
LINE
8
L100D0
66
1
10
1.21
20
1.2
11
0.4
21
1.2
0
LINE
8
L100D0
66
1
10
0.4
20
1.2
11
0.4
21
0.39
0
ENDSEC
0
EOF
